Cyberfret.com: Guitar scales - major - 3 notes per string - Page 9
Cyberfret.com Online Guitar Lessons
     
 
Home > Guitar Scales

Major scale forms - 3 notes per string


Free Download - 17 Essential Strum Patterns PDF



Here are all of the 3 note per string major scale forms. First the fingerings are indicated, then below that are all of the scale forms again with the scale degrees indicated. There are also links to printer friendly versions of each.

 

 

 

G major scale forms
3 notes per string
fingerings indicated

Ionian Form

|-----|-----|--1--|-----|--3--|--4--|
|-----|-----|--1--|-----|--3--|--4--|
|-----|--1--|--2--|-----|--4--|-----|
|-----|--1--|--2--|-----|--4--|-----|
|--1--|-----|--2--|-----|--4--|-----|
|--1--|-----|--2--|-----|--4--|-----|
   |
  3rd fret

Dorian Form

|-----|-----|--1--|--2--|-----|--4--|
|-----|-----|--1--|--2--|-----|--4--|
|--1--|-----|--2--|-----|--4--|-----|
|--1--|-----|--2--|-----|--4--|-----|
|--1--|-----|--2--|-----|--4--|-----|
|--1--|-----|--2--|--3--|-----|-----|
   |
  5th fret

Phrygian Form

|-----|--1--|-----|--3--|-----|--4--|
|-----|--1--|-----|--3--|-----|--4--|
|--1--|-----|--3--|-----|--4--|-----|
|--1--|-----|--3--|--4--|-----|-----|
|--1--|-----|--3--|--4--|-----|-----|
|--1--|--2--|-----|--4--|-----|-----|
   |
  7th fret

Lydian Form

|-----|-----|--1--|-----|--3--|-----|--4--|
|-----|-----|--1--|-----|--3--|--4--|-----|
|-----|--1--|-----|--3--|--4--|-----|-----|
|-----|--1--|--2--|-----|--4--|-----|-----|
|-----|--1--|--2--|-----|--4--|-----|-----|
|--1--|-----|--2--|-----|--4--|-----|-----|
   |
  8th fret

Mixolydian Form

|-----|-----|--1--|-----|--3--|--4--|
|-----|-----|--1--|--2--|-----|--4--|
|-----|--1--|--2--|-----|--4--|-----|
|--1--|-----|--2--|-----|--4--|-----|
|--1--|-----|--2--|-----|--4--|-----|
|--1--|-----|--2--|-----|--4--|-----|
   |
  10th fret

Aeolian Form

|-----|-----|--1--|--2--|-----|--4--|
|-----|--1--|-----|--2--|-----|--4--|
|--1--|-----|--2--|-----|--4--|-----|
|--1--|-----|--2--|-----|--4--|-----|
|--1--|-----|--2--|--3--|-----|-----|
|--1--|-----|--2--|--3--|-----|-----|
   |
  12th fret

Locrian Form

|-----|--1--|-----|--3--|-----|--4--|
|-----|--1--|-----|--3--|-----|--4--|
|--1--|-----|--3--|--4--|-----|-----|
|--1--|-----|--3--|--4--|-----|-----|
|--1--|--2--|-----|--4--|-----|-----|
|--1--|--2--|-----|--4--|-----|-----|
   |
  14th fret (or 2nd fret)


 

G major scale forms
3 notes per string
Scale degrees indicated

Ionian Form

|-----|-----|--2--|-----|--3--|--4--|
|-----|-----|--6--|-----|--7--|--1--|
|-----|--3--|--4--|-----|--5--|-----|
|-----|--7--|--1--|-----|--2--|-----|
|--4--|-----|--5--|-----|--6--|-----|
|--1--|-----|--2--|-----|--3--|-----|
   |
  3rd fret

Dorian Form

|-----|-----|--3--|--4--|-----|--5--|
|-----|-----|--7--|--1--|-----|--2--|
|--4--|-----|--5--|-----|--6--|-----|
|--1--|-----|--2--|-----|--3--|-----|
|--5--|-----|--6--|-----|--7--|-----|
|--2--|-----|--3--|--4--|-----|-----|
   |
  5th fret

Phrygian Form

|-----|--4--|-----|--5--|-----|--6--|
|-----|--1--|-----|--2--|-----|--3--|
|--5--|-----|--6--|-----|--7--|-----|
|--2--|-----|--3--|--4--|-----|-----|
|--6--|-----|--7--|--1--|-----|-----|
|--3--|--4--|-----|--5--|-----|-----|
   |
  7th fret

Lydian Form

|-----|-----|--5--|-----|--6--|-----|--7--|
|-----|-----|--2--|-----|--3--|--4--|-----|
|-----|--6--|-----|--7--|--1--|-----|-----|
|-----|--3--|--4--|-----|--5--|-----|-----|
|-----|--7--|--1--|-----|--2--|-----|-----|
|--4--|-----|--5--|-----|--6--|-----|-----|
   |
  8th fret

Mixolydian Form

|-----|-----|--6--|-----|--7--|--1--|
|-----|-----|--3--|--4--|-----|--5--|
|-----|--7--|--1--|-----|--2--|-----|
|--4--|-----|--5--|-----|--6--|-----|
|--1--|-----|--2--|-----|--3--|-----|
|--5--|-----|--6--|-----|--7--|-----|
   |
  10th fret

Aeolian Form

|-----|-----|--7--|--1--|-----|--2--|
|-----|--4--|-----|--5--|-----|--6--|
|--1--|-----|--2--|-----|--3--|-----|
|--5--|-----|--6--|-----|--7--|-----|
|--2--|-----|--3--|--4--|-----|-----|
|--6--|-----|--7--|--1--|-----|-----|
   |
  12th fret

Locrian Form

|-----|--1--|-----|--2--|-----|--3--|
|-----|--5--|-----|--6--|-----|--7--|
|--2--|-----|--3--|--4--|-----|-----|
|--6--|-----|--7--|--1--|-----|-----|
|--3--|--4--|-----|--5--|-----|-----|
|--7--|--1--|-----|--2--|-----|-----|
   |
  14th fret (or 2nd fret)

Page 8, Locrian scale form

Page 10, Things to do with these scale forms

 

Major scale forms - 3 notes per string - jump zone

Intro to scale forms
Ionian scale form
Dorian scale form
Phrygian scale form
Lydian scale form

Mixolydian scale form
Aeolian scale form
Locrian scale form
All scale forms together
Things to do with these scale forms



Free Download - 17 Essential Strum Patterns PDF








Guitar Courses

Rhythm Guitar Mastery
How to strum guitar like a pro, master rhythms, and build your vocabulary of essential chords

60s Rock Strumming Songs
Learn how to play 18 classic 60s rock tunes

70s Rock Strumming Songs
Learn how to play 20 classic 70s rock tunes

80s Rock Strumming Songs
Learn how to play 20 classic 80s rock tunes

90s Rock Strumming Songs
Learn how to play 20 classic 90s rock tunes

Modern Country Strumming Songs
Learn how to play 16 modern country songs

Guitar Lick Factory
A system for creating rock & blues guitar licks