Cyberfret.com: Free Online Guitar lessons - Home

Classic Internet Guitar Lessons

These lessons have been floating around the web for years and were not written by the cyberfret staff. Therefore they are offered AS IS with no warranty, no money back guarantee, no technical support, no ads, and no pretty background (just plain gray and text, the way it was back in the old days, AND WE LIKED IT) The author of the material is at the top of each lesson. This is part of the history of guitar lessons on the Internet...

 

Yngwie Malmsteen 2
Judy Letostak  letostak@ix.netcom.com  
The Music Shop BBS 619-423-4970 24hrs
***************************************
Licks, Arpeggios and Classical Phrases*
***************************************

Example 1  (E Diminished Arpeggio)



|--3--0-----------0--6--3-----------3--9--6-----------6--12--9-------------
|--------2-----2-----------5-----5-----------8-----8------------11------11-
|-----------3-----------------6-----------------9-------------------12-----
|--------------------------------------------------------------------------
|--------------------------------------------------------------------------
|--------------------------------------------------------------------------


--9---|--15--12--------------12--18--15--------------15----21~~-----------|
------|----------14------14--------------17------17-----------------------|
------|--------------15----------------------18---------------------------|
------|-------------------------------------------------------------------|
------|-------------------------------------------------------------------|
------|-------------------------------------------------------------------|


Example 2 (A Minor Arpeggio)


|----------------------12--17--12-----------------------------------------|
|------------------13--------------13-------------------------------------|
|--------------14----------------------14---------------------------------|
|------10--14------------------------------14--10-------------------------|
|--12----------------------------------------------12---------------------|
|-------------------------------------------------------------------------|



Example 3 (A Minor Arpeggios)

|-5--0-----------0--8--5-----------5--|--12--8-------------8--17--12-------
|-------1-----1-----------5-----5-----|---------10-----10-------------13---
|----------2-----------------5--------|-------------9----------------------
|-------------------------------------|------------------------------------
|-------------------------------------|------------------------------------
|-------------------------------------|------------------------------------


----------12--|--20--17---------------------------------------------------|
------13------|----------17-----------------------------------------------|
--14----------|--------------17----17~------------------------------------|
--------------|-----------------------------------------------------------|
--------------|-----------------------------------------------------------|
--------------|-----------------------------------------------------------|



Example 4   Am

|-17---------13--17--15--13--10--13--12--10--12--15--13--12--|-8--12--10---
|------------------------------------------------------------|-------------
|------------------------------------------------------------|-------------
|------------------------------------------------------------|-------------
|------------------------------------------------------------|-------------
|------------------------------------------------------------|-------------


--8--10--13--12--10--7--10--8--7--8--12--10--8--|-5--8--7--5--7--10--8--7--
------------------------------------------------|--------------------------
------------------------------------------------|--------------------------
------------------------------------------------|--------------------------
------------------------------------------------|--------------------------
------------------------------------------------|--------------------------


--4--7--5--4--5----|
-------------------|
-------------------|
-------------------|
-------------------|
-------------------|


Example 5 (Am)

|--7---------7--8----------8--10----------10--12----------12--13-----------
|-----9--10--------10--12---------12--13----------13--15----------15--17---
|--------------------------------------------------------------------------
|--------------------------------------------------------------------------
|--------------------------------------------------------------------------
|--------------------------------------------------------------------------


--13--15----------15--17---|
----------17--18-----------|
---------------------------|
---------------------------|
---------------------------|
---------------------------|



Example 6 ("Echo Lick" notated with echo effect)

|--19------15-(19)--17-(15)---14-(17)--15-(14)--12-(15)--14-(12)--10-(14)--|
|--------------------------------------------------------------------------|
|--------------------------------------------------------------------------|
|--------------------------------------------------------------------------|
|--------------------------------------------------------------------------|
|--------------------------------------------------------------------------|


|-12-(10)--8-(12)--10-(8)--7-(10)--8-(7)-----(8)--7---------(7)--|---------
|-----------------------------------------10--------(10)--8------|-10-(8)--
|----------------------------------------------------------------|---------
|----------------------------------------------------------------|---------
|----------------------------------------------------------------|---------
|----------------------------------------------------------------|---------


---------------------------|
---7-(10)--8-(7)-----------|
------------------9~~~~~---|
---------------------------|
---------------------------|
---------------------------|


Example 6 (notated without echo effect)

|-19--15--17--14--15--12--14--10-|-12--8--10--7--8------7----|-------------|
|--------------------------------|------------------10-----8-|-10--7--8----|
|--------------------------------|---------------------------|-----------9~|
|--------------------------------|---------------------------|-------------|
|--------------------------------|---------------------------|-------------|
|--------------------------------|---------------------------|-------------|


Example 7 (Am)


|----------13-15-17-15-13-------------------12-13-15-13-12----------|
|-13-15-17----------------17-15-13-12-13-15----------------15-13-12-|
|-------------------------------------------------------------------|
|-------------------------------------------------------------------|
|-------------------------------------------------------------------|
|-------------------------------------------------------------------|


|----------10-12-13-12-10------------------------------|
|-10-12-13----------------13-12-10---------------------|
|----------------------------------13-10-9-------------|
|------------------------------------------12-10-9-----|
|--------------------------------------------------12--|
|------------------------------------------------------|



Example 8 (F#m)


|-17-14-16-17-16-14-21-14-16-17-16-14-17-14-16-17-16-14---21~~~-----------|
|-------------------------------------------------------------------------|
|-------------------------------------------------------------------------|
|-------------------------------------------------------------------------|
|-------------------------------------------------------------------------|
|-------------------------------------------------------------------------|


Example 9

|--13-12-13-10-13-8-13----13----13---13-12-13-10-13-8-13-8-13----13--------
|----------------------12----10----9--------------------------12----10-----
|--------------------------------------------------------------------------
|--------------------------------------------------------------------------
|--------------------------------------------------------------------------
|--------------------------------------------------------------------------


--13------------|--17-15-17-13-17-12-17----17----17----15----------10-12---
-----9-12--10~--|-----------------------15----13----12----10-12-13---------
----------------|----------------------------------------------------------
----------------|----------------------------------------------------------
----------------|----------------------------------------------------------
----------------|----------------------------------------------------------


--13-12-10------------------------------|
-----------13-12-9-10-------------------|
----------------------9-----------------|
------------------------10--9-10-9------|
------------------------------------12--|
----------------------------------------|


Example 10 (C Harmonic Minor)


|-16-15-13----------------------------------------------------|------------
|----------16-15-13-12-13-15-13-12----------------------------|------------
|----------------------------------12-13-12-10----------------|------------
|----------------------------------------------13-12-10-9-10--|------------
|-------------------------------------------------------------|--12-10-9---
|-------------------------------------------------------------|------------


---------------------------------------|
---------------------------------------|
---------------------------------------|
---------------------------------------|
--10-11-10-8---------------------------|
-------------11-10-8-7-8-10-8-7-4-3~---|


Example 11 (Am)

|--------------------------------------------------------------------------
|----------------------------------------------------------------------0---
|------------------------------------------------------------7--9--10------
|----------------------------5--7-----5--7--9--10--7--9--10----------------
|----------5--7-----5--7--8--------8---------------------------------------
|-5--7--8--------8---------------------------------------------------------


-----------------------------------12-------------------------------------|
----------------------------10----------------10--------------------------|
-------------9--10--12--13------------------------------------------------|
--9--10--12---------------------------------------------------------------|
--------------------------------------------------------------------------|
--------------------------------------------------------------------------|



Example 12 "Echo Etude" (as played second time, without echo effect)


|-19--17-19-15-19-14-19----15-|-14-15-12-15-10-15----12-|-10-12-8-12-7-12--
|-----------------------17----|-------------------13----|------------------
|-----------------------------|-------------------------|------------------
|-----------------------------|-------------------------|------------------
|-----------------------------|-------------------------|------------------
|-----------------------------|-------------------------|------------------


-----8--|-7-8-5-8---8-|----------|-------------------5-|--8--5--7--12------|
-10-----|---------8---|-7--5--4--|-7--5--4--5--7--8----|-------------------|
--------|-------------|----------|---------------------|-------------------|
--------|-------------|----------|---------------------|-------------------|
--------|-------------|----------|---------------------|-------------------|
--------|-------------|----------|---------------------|-------------------|


|-11-12-8-12-7-8----7-|-------------------|------------------|-------------|
|----------------10---|-8--10--7--8-------|------------------|-------------|
|---------------------|--------------9--9-|------------------|-------------|
|---------------------|-------------------|-7--5--7--5----4--|-------------|
|---------------------|-------------------|------------------|-7-----------|
|---------------------|-------------------|------------------|----7--3--2--|


|-----------------|-----------8-7-8-|-5-8---8---8---8-|---------8-7-5-7---|
|-----------------|-5-4-5-7-8-------|-----8---7---5---|-4-0-4-7-----------|
|---------------4-|-----------------|-----------------|-------------------|
|---------2-4-5---|-----------------|-----------------|-------------------|
|-------2---------|-----------------|-----------------|-------------------|
|-0-2-3-----------|-----------------|-----------------|-------------------|


|-8-7-8-11-12-11-------|-8----7------------|-----------------|-------------
|----------------12-10-|---10---8-10-7-8---|-7---------------|-------------
|----------------------|-----------------9-|---8-9-5-8-4-5---|-4-----------
|----------------------|-------------------|---------------7-|---5-7-4-5---
|----------------------|-------------------|-----------------|-------------
|----------------------|-------------------|-----------------|-------------


--------|--------------|-------------|---------------10-13-10-|12-10-7tr8--|
--------|--------------|-------------|-10-9-10-12-13----------|------------|
--------|--------------|-------------|------------------------|------------|
----4---|--------------|----------9--|------------------------|------------|
--7---6-|-----7--------|-7--9-10-----|------------------------|------------|
--------|--------------|-------------|------------------------|------------|


|---------------|-------------|-------------|-------------|---------------|
|-10------------|-------------|-------------|-------------|---------------|
|-----9---------|-----------7-|-9--7--5--4--|-------------|---------------|
|--------10--9--|-7--9--10----|-------------|-7--5--3--2--|---------------|
|---------------|-------------|-------------|-------------|--5--3--2------|
|---------------|-------------|-------------|-------------|------------5--|


|-------------------------|-------------------7--8--10--|-12--10-----------|
|-------------------------|------------9--10------------|---------13--12~--|
|----------------------7--|-10--9--10-------------------|------------------|
|----------------6--9-----|-----------------------------|------------------|
|----------5--8-----------|-----------------------------|------------------|
|-0--4--7-----------------|-----------------------------|------------------|


|-------------------------------|------------------|---------12--8--------|
|-10--9--10---------------------|------------------|------10--------10----|
|-----------9-------------------|-------------9~---|----9-----------------|
|-------------10----9--10-------|----9-10-12-------|-10-------------------|
|-------------------------12-11-|-12---------------|----------------------|
|-------------------------------|------------------|----------------------|


|--------------|----------------|----------------12-17-12-13----12--------|
|--------------|----------------|-------------13-------------15----13-----|
|--9--7--5--4--|----------------|----------14-----------------------------|
|--------------|-7--------------|----10-14--------------------------------|
|--------------|----7--3--2--0--|-12--------------------------------------|
|--------------|----------------|-----------------------------------------|


|-------------------------|------------------------------|----------------|
|-15-12-13----------------|------------------------------|----------------|
|----------14-13-13-14-10-|-13--9--10------9-------------|----------------|
|-------------------------|------------12-----10--12--10-|---9------------|
|-------------------------|------------------------------|----------------|
|-------------------------|------------------------------|----------------|


|----------------10--13---10--16--16-13--|--19--16-16b(24)----------------|
|-----------12---------------------------|--------------------------------|
|--------12------------------------------|--------------------------------|
|-----12---------------------------------|--------------------------------|
|-14-------------------------------------|--------------------------------|
|----------------------------------------|--------------------------------|


|-12~-10--------------------|-----------------------|----------------------|
|--------13--12-13-12-10-9--|-10--------------------|----------------------|
|---------------------------|----9------------------|------------9---------|
|---------------------------|------10----9-10-9-----|----9-10-12----10-12-9|
|---------------------------|-------------------12--|-12-------------------|
|---------------------------|-----------------------|----------------------|


|--------------------------|------------------------|----------------------|
|--------------------------|------------------------|----------------------|
|----------------9------7--|----7-----5-----4-----5-|-5-7----9----10----9--|
|-10----9-----------10-----|-9-----7-----6-----7----|-----10---12----10----|
|----12----11-12-----------|------------------------|----------------------|
|--------------------------|------------------------|----------------------|


|------------------|---------------------|--------------------5-|-8-5------
|------------------|---------------------|------------------5---|-----5----
|---7---5---4---5--|---7----9----10----9-|---7---5---4----5-----|-------5--
|-9---7---6---7----|-9---10---12----10---|-9---7---6---7--------|----------
|------------------|---------------------|----------------------|----------
|------------------|---------------------|----------------------|----------


---8-12-8---------12-|-17-12----------12-20-19-17-16-|-17------------------
-5--------10---10----|-------13----13----------------|----17-18-17-15-13---
-------------9-------|----------14-------------------|---------------------
---------------------|-------------------------------|---------------------
---------------------|-------------------------------|---------------------
---------------------|-------------------------------|---------------------


--------|--------------------|-------------|---------------|--------------|
--15-12-|-13----12-----------|-------------|---------------|--------------|
--------|----14----13-14-----|-14----------|---------------|--------------|
--------|--------------------|----10-9-10--|---------------|--------------|
--------|--------------------|-------------|-12------------|----------7---|
--------|--------------------|-------------|-----12--8--7--|-5--7--8------|


|--------------------|-----------------------------|----------------------|
|--------------------|-----------------------------|----------------------|
|--------------------|----10--9--10--7--10--5--10--|-------10-------------|
|-7--6--7--9--10--9--|-7---------------------------|-9--7------6----------|
|--------------------|-----------------------------|--------------8-------|
|--------------------|-----------------------------|----------------------|


|-------------|-----------|-----------------|-----------------------------|
|-------------|-----------|-----------------|-----------------------------|
|-------------|-----------|-----------------|-----------------------9-----|
|-------------|-----------|-----------------|-7--9--7--9--7--9--10--------|
|-7--5--3--2--|-0---------|---------7-------|-----------------------------|
|-------------|----4--5---|--8--------------|-----------------------------|


|-------------10---|--12--17--17~~~~~-----||
|-10--12--13-------|----------------------||
|------------------|----------------------||
|------------------|----------------------||
|------------------|----------------------||
|------------------|----------------------||




************************************************************************
***************************
Segments from Compositions*
***************************

Example 13 "Demon Driver"

   Bm           F#            Bm           F#            Bm            Db
|-10-7-------10-9-6-------6-|-10-7-------7-9-6-------6-|-10-7-------7--12--
|------7---7--------7---7---|------7---7-------7---7---|------7---7--------
|--------7------------6-----|--------7-----------6-----|--------7----------
|---------------------------|--------------------------|-------------------
|---------------------------|--------------------------|-------------------
|---------------------------|--------------------------|-------------------

                 D                A                D
--9--------9--|-14-10----------10-12-9---------9-|-14-10----------10-12-9--
----9----9----|-------10----10---------10---10---|-------10----10----------
------10------|----------11---------------9------|----------11-------------
--------------|----------------------------------|-------------------------
--------------|----------------------------------|-------------------------
--------------|----------------------------------|-------------------------

                                                    Em
---------9--|-14-10----------10-14-11----------11-|-15-12----------12-14---
-10---10----|-------10----10----------12----12----|-------12----12---------
----9-------|----------11----------------11-------|----------12------------
------------|-------------------------------------|------------------------
------------|-------------------------------------|------------------------
------------|-------------------------------------|------------------------

 B7                Em                Bdim7               F#sus
-11----------11--|-15-12----------12-16-13----------13-|-19-14----------14-
----12----12-----|-------12----12----------15----15----|-------14----14----
-------11--------|----------12----------------16-------|----------16-------
-----------------|-------------------------------------|-------------------
-----------------|-------------------------------------|-------------------
-----------------|-------------------------------------|-------------------

                        F#
--19-14-----------19--|-18-14----------14-18-14----------14--||
--------14----14------|-------14----14----------14----14-----||
-----------16---------|----------15----------------15--------||
----------------------|--------------------------------------||
----------------------|--------------------------------------||
----------------------|--------------------------------------||



Example 14 "Rising Force"

   Em
|-15-12----12-15-12----12-15-12----12-14-12----12-|-15-12----12-17-12------
|-------12----------12----------12----------12----|-------12----------12---
|-------------------------------------------------|------------------------
|-------------------------------------------------|------------------------
|-------------------------------------------------|------------------------
|-------------------------------------------------|------------------------

                                C
--12-15-12----12-14-12----12-|-15-12----12-15-12----12-15-12----12-14-12---
-----------12----------13----|-------13----------13----------13------------
-----------------------------|---------------------------------------------
-----------------------------|---------------------------------------------
-----------------------------|---------------------------------------------
-----------------------------|---------------------------------------------

                                      D
----12-|-15-12----12-15-12----12-14-|-17-14----14-17-14----14-17-14----14--
-13----|-------13----------13-------|-------15----------15----------15-----
-------|----------------------------|--------------------------------------
-------|----------------------------|--------------------------------------
-------|----------------------------|--------------------------------------
-------|----------------------------|--------------------------------------

                                                         Em
--15-14----14-|-17-14----14-19-14----14-17-14----14-15-|-19-15-------19-7--
--------15----|-------15----------15----------15-------|-------17----------
--------------|----------------------------------------|-------------------
--------------|----------------------------------------|-------------------
--------------|----------------------------------------|-------------------
--------------|----------------------------------------|-------------------

                                                    Am
--3----------7---|-19-15---------19-7-3--------7-|--20-17---------20-8-5---
-----5-----------|-------17-------------5--------|--------17-------------5-
-----------------|-------------------------------|-------------------------
-----------------|-------------------------------|-------------------------
-----------------|-------------------------------|-------------------------
-----------------|-------------------------------|-------------------------

            Am                         D
------8--|--19-17----20------8-5---8-|-17-14------------------5-2---------|
---------|--------17-------------5---|-------15-------15----------3-------|
---------|---------------------------|-------------14-------------------2-|
---------|---------------------------|------------------------------------|
---------|---------------------------|------------------------------------|
---------|---------------------------|------------------------------------|

                                 C
|-17-14-------------5-2-------|--15-12----15------3-0---3-|-15-12----15----
|-------15--------------3-----|--------13-------------1---|-------13-------
|----------14--------------2--|---------------------------|----------------
|-----------------------------|---------------------------|----------------
|-----------------------------|---------------------------|----------------
|-----------------------------|---------------------------|----------------

               Cdim7                      Cdim7
---3-0----3--|-5-2-------2-8-5-------5--|-11-8----------8-14-11----------11|
-------1-----|-----4---4-------7---7----|------10----10---------13----13---|
-------------|-------5-----------7------|---------11---------------14------|
-------------|--------------------------|----------------------------------|
-------------|--------------------------|----------------------------------|
-------------|--------------------------|----------------------------------|


|-17-14----------14-20-17----------17-|-21b(23)----------|-(23)b(24)~~~~-||
|-------16----16----------16----16----|------------------|---------------||
|----------17----------------20-------|------------------|---------------||
|-------------------------------------|------------------|---------------||
|-------------------------------------|------------------|---------------||
|-------------------------------------|------------------|---------------||




Example 15 (B Harmonic Minor)   "Trilogy Suite"

|-16-15-13-----------------------------------------------------------------
|----------16-15-13-12-13-15-13-12-----------------------------------------
|----------------------------------12-13-12-10-------------10-12-13-12-10--
|----------------------------------------------13-10-12-13-----------------
|--------------------------------------------------------------------------
|--------------------------------------------------------------------------


---------------------------||
---------------------------||
-----------------------0---||
--12-10-10-12-10-----------||
-----------------11--------||
---------------------------||


****************************************************************************
**************
Blues Soloing*
**************

In this improvised solo, Yngwie plays four "solo" phrases before the band
joins in on the IV chord (A7 bar 5) of the 12 bar blues.

"Blues Solo"



|----------12--16--12--17--12--18--12--19b(22)---rb--p19~-----------------|
|--15b(17)----------------------------------------------------------------|
|-------------------------------------------------------------------------|
|-------------------------------------------------------------------------|
|-------------------------------------------------------------------------|
|-------------------------------------------------------------------------|


|-12-15-14-12----14-12----12------|--15p12--------------------------------|
|-------------15-------15----15---|--------15-12--------------------------|
|---------------------------------|--------------15-14-12----14----12-----|
|---------------------------------|-----------------------14----14--------|
|---------------------------------|---------------------------------------|
|---------------------------------|---------------------------------------|


|-------------------------------------------------------|------------------
|-------------------------------------------------------|------------------
|-------------------------------------------------------|------------------
|-14-12----14-12-------12-------------------------------|------------------
|-------14-------13-14----14-13-12-13-12-10-12~--b(17)--|-rbp14-14-13-12---
|-------------------------------------------------------|------------------


---------------|---------------------------------------------------12------
---------------|-------------15-12-14-12----12------------------12---------
-----------14b-|----12-14-15-------------15----15-14-12--------------------
--------14-----|-14-------------------------------------14b(16)------------
-----14--------|-----------------------------------------------------------
--15-----------|-----------------------------------------------------------


-12----------------------|-------------------------------------------------
----15-12----------------|-------------------------------------------------
----------14-12----14-12-|--------------------12----14-12--------12----14--
----------------14-------|-----14-------12-14----14-------14--------14-----
-------------------------|-------------------------------------------------
-------------------------|-------------------------------------------------


----------------------|---------------------------------------------------|
----------------------|---------------------------------------------------|
--12----------------9-|--12-11-9----9------b(12)~-------------------------|
-------14------9-11---|----------11---------------------------------------|
----------------------|---------------------------------------------------|
----------------------|---------------------------------------------------|


|-14----------------|--------12------------|--12-15p12----------12---------
|----15-------------|--/17-------12b(17)---|-----------12-15-12----15-12---
|--------16-15-14~--|----------------------|-------------------------------
|-------------------|----------------------|-------------------------------
|-------------------|----------------------|-------------------------------
|-------------------|----------------------|-------------------------------


------------------22|p19---------------------------------------------------
--------------------|-----15-12-15t17-12-15t17-12-15t17-11-14t17-11-14t17--
--15-12----14-12----|------------------------------------------------------
--------14----------|------------------------------------------------------
--------------------|------------------------------------------------------
--------------------|------------------------------------------------------


--------------------------------------|------14---------------------------|
--11-14t17-10-13t17-10-13t17-10-13t17-|-/15-----15------------------------|
--------------------------------------|------------16-15-14---14-13-12----|
--------------------------------------|-----------------------------------|
--------------------------------------|-----------------------------------|
--------------------------------------|-----------------------------------|


Example 16


|---------12-16-12-17-12-18-12-19-12-18-12-17-12-16---12------------------|
|-15b(17)------------------------------------------------12---------------|
|-----------------------------------------------------------12~-----------|
|-------------------------------------------------------------------------|
|-------------------------------------------------------------------------|
|-------------------------------------------------------------------------|


Example 17

|---------12-16-12-17-12-18-12-19b(22)-|-rb19-18-17----17-17---------------
|-15b(17)------------------------------|------------20-------20----17-19---
|--------------------------------------|------------------------19---------
|--------------------------------------|-----------------------------------
|--------------------------------------|-----------------------------------
|--------------------------------------|-----------------------------------


--------------||
--17---19b----||
--------------||
--------------||
--------------||
--------------||


Example 18 (E Blues E minor pentatonic)

|-12--------------------------------------------|
|----15-14-12-----------------------------------|
|-------------15-14-12-11-----------------------|
|-------------------------14-12-11--------------|
|----------------------------------14-13-12-10--|
|-----------------------------------------------|


Example 19

|-12----------------------------------------------||
|----15-14-12-------------------------------------||
|-------------15-14-12----14-12-------------------||
|----------------------14-------14-12-------------||
|-------------------------------------14-13-12-10-||
|-------------------------------------------------||


Example 20 
This example was written on the wrong string in the accompanying book.
It was written on the E string but was supposed to be on the B string.
So, here it is on the RIGHT string.


|-------------------------------------------------------------|------------
|-t17-12-15-t17-12-15-t17-12-15-t17-12-15-t17-11-14-t17-11-14-|-t17-11-14--
|-------------------------------------------------------------|------------
|-------------------------------------------------------------|------------
|-------------------------------------------------------------|------------
|-------------------------------------------------------------|------------


----------------------------------------||
--t17-10-13-t17-10-13-t17-10-13-t17-9~--||
----------------------------------------||
----------------------------------------||
----------------------------------------||
----------------------------------------||


Example 21 (E major pentatonic * E Mixolydian)

|--------12-16----12------------------------------------------------------|
|-12--15-------------15-12------------------------------------------------|
|--------------------------14-13------------------------------------------|
|--------------------------------14-12-14-------12-------------12---------|
|-----------------------------------------12-14-------12-11---------------|
|-------------------------------------------------------------------------|


|----------12-16----12-----------------------------------------------------
|-12----15-------------15-14-12--------------------------------------------
|-------------------------------14-13----14-13-----------------------------
|-------------------------------------14-------14---12-11-12----11----14---
|------------------------------------------------------------14----12------
|--------------------------------------------------------------------------


----------------------||
----------------------||
----------------------||
----------------------||
---10-----------------||
--------\10~~~~-------||



Example 23

|------0------------------------------------------------------------------|
|----0----/5---3-0--------------------------------------------------------|
|b(4)--------------3-2-0---2-0--b(4)--0-----------------------------------|
|------------------------2-----------------2-----------0--------2-----5---|
|------------------------------------------------1--2--------------4------|
|---------------------------------------------------------3--0------------|


|-------------------------------------------------------------------------|
|--------------------0----------------------------------------------------|
|-b(6)rb4----------------b(3)rb2--0--0------------------------------------|
|-----------5--2--2-----------------------2----------0----------2--2------|
|----------------------------------------------0--2-----------------------|
|---------------------------------------------------------3--0------------|


**************************************************************************
Chord Progressions*
*******************
Progression 1

  Bm   F#sus/B         Bm      F#sus/B       Bm/A   F#sus/A   Bm/A  F#sus/A
|----------------------------------------|---------------------------------|
|----------------------------------------|---------------------------------|
|----------------------------------------|---------------------------------|
|----------------------------------------|---------------------------------|
|----------------------------------------|---------------------------------|
|----------------------------------------|---------------------------------|

  Bm/G      F#sus/G   Bm/G  F#sus/G          F#sus            F#
|----------------------------------------|--------------------------------|
|----------------------------------------|--------------------------------|
|----------------------------------------|--------------------------------|
|----------------------------------------|--------------------------------|
|----------------------------------------|--------------------------------|
|----------------------------------------|--------------------------------|

scales to use over this progression
F# Phrygian (D Major)
B Harmonic Minor
G melodic minor
G diminished arpeggios




"Bedroom Eyes"

   F#m
|-----------------|---------------------|----------------|----------------|
|-----------------|---------------------|----------------|----------------|
|-----------------|---------------------|----------------|----------------|
|-----------------|---------------------|----------------|----------------|
|-----------------|---------------------|----------------|----------------|
|-----------------|---------------------|----------------|----------------|

    F#m
|-----------------|-------------------------------------------------------|
|F#minor pentatonic  -----------------------------------------------------|
|F# Dorian           -----------------------------------------------------|
|F# Aeolian (A Major)-----------------------------------------------------|
|F# Blues            -----------------------------------------------------|
|-----------------|-------------------------------------------------------|


     G7                                        C           D
|------------------|----------------------|-------------------------------|
|Gmajor pentatonic-|----------------------|-G major   Eharmonic minor-----|
|Dminor pentatonic-|----------------------|-------------------------------|
|Eminor pentatonic-|----------------------|-------------------------------|
|E harmonic minor--|----------------------|-------------------------------|
|------------------|----------------------|-------------------------------|


  Em
|--------------------|----------------------------------------------------|
|E Aeolian (Gmajor)--|----------------------------------------------------|
|Eminor pentatonic---|----------------------------------------------------|
|E blues-------------|----------------------------------------------------|
|E Dorian (D major)--|----------------------------------------------------|
|--------------------|----------------------------------------------------|


"Save Our Love"  chord progression


     C             C/B     Am          E/G#            Am
|-----------|--------------------|----------------|-----------------------|
|Cmajor-----|--------------------|F# dim arp------|-C major---------------|
|-----------|--------------------|A harmonic minor|-----------------------|
|-----------|--------------------|----------------|-----------------------|
|-----------|--------------------|----------------|-----------------------|
|-----------|--------------------|----------------|-----------------------|

   F            D/F#                 G                E/G#
|-----------|--------------------|---------------|------------------------|
|-----------|F# diminished arp---|--G major------|-A harmonic minor-------|
|-----------|G harmonic minor----|---------------|------------------------|
|-----------|G major-------------|---------------|------------------------|
|-----------|--------------------|---------------|------------------------|
|-----------|--------------------|---------------|------------------------|

  Am           Am                 F                  F
|----------|--------------|-----------------|-----------------------------|
|Cmajor----|--------------|-----------------|-----------------------------|
|----------|--------------|-----------------|-----------------------------|
|----------|--------------|-----------------|-----------------------------|
|----------|--------------|-----------------|-----------------------------|
|----------|--------------|-----------------|-----------------------------|


  Am           Am                 F                  F                     
|----------|--------------|-----------------|-----------------------------|
|Cmajor----|--------------|-----------------|-----------------------------|
|----------|--------------|-----------------|-----------------------------|
|----------|--------------|-----------------|-----------------------------|
|----------|--------------|-----------------|-----------------------------|
|----------|--------------|-----------------|-----------------------------|

    Dm                 A/C#                  Dm               A/C#
|-------------------|--------------------|------------|-------------------|
|D minor------------|-D harmonic minor---|-D minor----|-Same as other-----|
|D Doran (Cmajor)---|-A# diminished arp--|-C major----|-------------------|
|-------------------|--------------------|------------|-------------------|
|-------------------|--------------------|------------|-------------------|
|-------------------|--------------------|------------|-------------------|

     F                 F       F/E            Dm              Dm
|---------------|---------------------|---------------|-------------------|
|-Fmajor--------|---------------------|---------------|-------------------|
|---------------|---------------------|---------------|-------------------|
|---------------|---------------------|---------------|-------------------|
|---------------|---------------------|---------------|-------------------|
|---------------|---------------------|---------------|-------------------|

   F     F/E        Dm       Dm/C         G/B    F/A        E/G#
|--------------|--------------------|-----------------|-------------------|
|--------------|--------------------|-C major---------|A harmonic minor---|
|--------------|--------------------|-----------------|F dimished arp-----|
|--------------|--------------------|-----------------|-------------------|
|--------------|--------------------|-----------------|-------------------|
|--------------|--------------------|-----------------|-------------------|



=======================================================================
h = hammeron                    Judy Letostak                         
p = pulloff                     Internet letostak@ix.netcom.com
/\ = slide                      Fidonet 1:202/762                     
x = ghost note                  MetalNet 182:100/2                    
t = tap (right hand)            The Music Shop BBS (619)423-4970 24hrs
~ = vibrato                     * = picked harmonic
bf = bend full                  tr = trill
rb = release bend               p.s. = pick scrape
dive = dive with bar            b = bend / step written over note
========================================================================

back to the Classic Internet Guitar Lesson Index